  0
SECTION
  2
HEADER
  9
$ACADVER
  1
AC1015
  9
$ACADMAINTVER
 70
     6
  9
$DWGCODEPAGE
  3
ANSI_1254
  9
$INSBASE
 10
0.0
 20
0.0
 30
0.0
  9
$EXTMIN
 10
0.0
 20
0.0
 30
0.0
  9
$EXTMAX
 10
279.4
 20
215.9
 30
0.0
  9
$LIMMIN
 10
0.0
 20
0.0
  9
$LIMMAX
 10
279.4
 20
215.9
  9
$ORTHOMODE
 70
     0
  9
$REGENMODE
 70
     1
  9
$FILLMODE
 70
     1
  9
$QTEXTMODE
 70
     0
  9
$MIRRTEXT
 70
     1
  9
$LTSCALE
 40
1.0
  9
$ATTMODE
 70
     1
  9
$TEXTSIZE
 40
3.5
  9
$TRACEWID
 40
1.0
  9
$TEXTSTYLE
  7
Standard
  9
$CLAYER
  8
0
  9
$CELTYPE
  6
ByLayer
  9
$CECOLOR
 62
   256
  9
$CELTSCALE
 40
1.0
  9
$DISPSILH
 70
     0
  9
$DIMSCALE
 40
1.0
  9
$DIMASZ
 40
3.5
  9
$DIMEXO
 40
1.0
  9
$DIMDLI
 40
3.75
  9
$DIMRND
 40
0.0
  9
$DIMDLE
 40
0.0
  9
$DIMEXE
 40
1.0
  9
$DIMTP
 40
0.0
  9
$DIMTM
 40
0.0
  9
$DIMTXT
 40
3.5
  9
$DIMCEN
 40
2.5
  9
$DIMTSZ
 40
0.0
  9
$DIMTOL
 70
     0
  9
$DIMLIM
 70
     0
  9
$DIMTIH
 70
     1
  9
$DIMTOH
 70
     1
  9
$DIMSE1
 70
     0
  9
$DIMSE2
 70
     0
  9
$DIMTAD
 70
     1
  9
$DIMZIN
 70
     0
  9
$DIMBLK
  1

  9
$DIMASO
 70
     1
  9
$DIMSHO
 70
     1
  9
$DIMPOST
  1

  9
$DIMAPOST
  1

  9
$DIMALT
 70
     0
  9
$DIMALTD
 70
     3
  9
$DIMALTF
 40
0.0393700787
  9
$DIMLFAC
 40
1.0
  9
$DIMTOFL
 70
     1
  9
$DIMTVP
 40
0.0
  9
$DIMTIX
 70
     0
  9
$DIMSOXD
 70
     0
  9
$DIMSAH
 70
     0
  9
$DIMBLK1
  1

  9
$DIMBLK2
  1

  9
$DIMSTYLE
  2
ISO-25
  9
$DIMCLRD
 70
     0
  9
$DIMCLRE
 70
     0
  9
$DIMCLRT
 70
     0
  9
$DIMTFAC
 40
1.0
  9
$DIMGAP
 40
1.524
  9
$DIMJUST
 70
     0
  9
$DIMSD1
 70
     0
  9
$DIMSD2
 70
     0
  9
$DIMTOLJ
 70
     0
  9
$DIMTZIN
 70
     0
  9
$DIMALTZ
 70
     0
  9
$DIMALTTZ
 70
     0
  9
$DIMUPT
 70
     0
  9
$DIMDEC
 70
     2
  9
$DIMTDEC
 70
     2
  9
$DIMALTU
 70
     2
  9
$DIMALTTD
 70
     3
  9
$DIMTXSTY
  7
Standard
  9
$DIMAUNIT
 70
     0
  9
$DIMADEC
 70
     2
  9
$DIMALTRND
 40
0.0
  9
$DIMAZIN
 70
     0
  9
$DIMDSEP
 70
    44
  9
$DIMATFIT
 70
     3
  9
$DIMFRAC
 70
     0
  9
$DIMLDRBLK
  1

  9
$DIMLUNIT
 70
     2
  9
$DIMLWD
 70
    -2
  9
$DIMLWE
 70
    -2
  9
$DIMTMOVE
 70
     0
  9
$LUNITS
 70
     2
  9
$LUPREC
 70
     2
  9
$SKETCHINC
 40
1.0
  9
$FILLETRAD
 40
10.0
  9
$AUNITS
 70
     0
  9
$AUPREC
 70
     2
  9
$MENU
  1
.
  9
$ELEVATION
 40
0.0
  9
$PELEVATION
 40
0.0
  9
$THICKNESS
 40
0.0
  9
$LIMCHECK
 70
     0
  9
$CHAMFERA
 40
0.0
  9
$CHAMFERB
 40
0.0
  9
$CHAMFERC
 40
0.0
  9
$CHAMFERD
 40
0.0
  9
$SKPOLY
 70
     0
  9
$TDCREATE
 40
2459935.699297199
  9
$TDUCREATE
 40
2459935.574297199
  9
$TDUPDATE
 40
2459935.699297373
  9
$TDUUPDATE
 40
2459935.574297373
  9
$TDINDWG
 40
0.0000000116
  9
$TDUSRTIMER
 40
0.0000000116
  9
$USRTIMER
 70
     1
  9
$ANGBASE
 50
0.0
  9
$ANGDIR
 70
     0
  9
$PDMODE
 70
     0
  9
$PDSIZE
 40
-1.0
  9
$PLINEWID
 40
0.0
  9
$SPLFRAME
 70
     0
  9
$SPLINETYPE
 70
     6
  9
$SPLINESEGS
 70
     8
  9
$HANDSEED
  5
ED
  9
$SURFTAB1
 70
     6
  9
$SURFTAB2
 70
     6
  9
$SURFTYPE
 70
     6
  9
$SURFU
 70
     6
  9
$SURFV
 70
     6
  9
$UCSBASE
  2

  9
$UCSNAME
  2

  9
$UCSORG
 10
0.0
 20
0.0
 30
0.0
  9
$UCSXDIR
 10
1.0
 20
0.0
 30
0.0
  9
$UCSYDIR
 10
0.0
 20
1.0
 30
0.0
  9
$UCSORTHOREF
  2

  9
$UCSORTHOVIEW
 70
     0
  9
$UCSORGTOP
 10
0.0
 20
0.0
 30
0.0
  9
$UCSORGBOTTOM
 10
0.0
 20
0.0
 30
0.0
  9
$UCSORGLEFT
 10
0.0
 20
0.0
 30
0.0
  9
$UCSORGRIGHT
 10
0.0
 20
0.0
 30
0.0
  9
$UCSORGFRONT
 10
0.0
 20
0.0
 30
0.0
  9
$UCSORGBACK
 10
0.0
 20
0.0
 30
0.0
  9
$PUCSBASE
  2

  9
$PUCSNAME
  2

  9
$PUCSORG
 10
0.0
 20
0.0
 30
0.0
  9
$PUCSXDIR
 10
1.0
 20
0.0
 30
0.0
  9
$PUCSYDIR
 10
0.0
 20
1.0
 30
0.0
  9
$PUCSORTHOREF
  2

  9
$PUCSORTHOVIEW
 70
     0
  9
$PUCSORGTOP
 10
0.0
 20
0.0
 30
0.0
  9
$PUCSORGBOTTOM
 10
0.0
 20
0.0
 30
0.0
  9
$PUCSORGLEFT
 10
0.0
 20
0.0
 30
0.0
  9
$PUCSORGRIGHT
 10
0.0
 20
0.0
 30
0.0
  9
$PUCSORGFRONT
 10
0.0
 20
0.0
 30
0.0
  9
$PUCSORGBACK
 10
0.0
 20
0.0
 30
0.0
  9
$USERI1
 70
     0
  9
$USERI2
 70
     0
  9
$USERI3
 70
     0
  9
$USERI4
 70
     0
  9
$USERI5
 70
     0
  9
$USERR1
 40
0.0
  9
$USERR2
 40
0.0
  9
$USERR3
 40
0.0
  9
$USERR4
 40
0.0
  9
$USERR5
 40
0.0
  9
$WORLDVIEW
 70
     1
  9
$SHADEDGE
 70
     3
  9
$SHADEDIF
 70
    70
  9
$TILEMODE
 70
     1
  9
$MAXACTVP
 70
    64
  9
$PINSBASE
 10
0.0
 20
0.0
 30
0.0
  9
$PLIMCHECK
 70
     0
  9
$PEXTMIN
 10
1.0000000000E+20
 20
1.0000000000E+20
 30
1.0000000000E+20
  9
$PEXTMAX
 10
-1.0000000000E+20
 20
-1.0000000000E+20
 30
-1.0000000000E+20
  9
$PLIMMIN
 10
0.0
 20
0.0
  9
$PLIMMAX
 10
420.0
 20
297.0
  9
$UNITMODE
 70
     0
  9
$VISRETAIN
 70
     1
  9
$PLINEGEN
 70
     0
  9
$PSLTSCALE
 70
     1
  9
$TREEDEPTH
 70
  3020
  9
$CMLSTYLE
  2
Standard
  9
$CMLJUST
 70
     0
  9
$CMLSCALE
 40
20.0
  9
$PROXYGRAPHICS
 70
     1
  9
$MEASUREMENT
 70
     1
  9
$CELWEIGHT
370
    -1
  9
$ENDCAPS
280
     0
  9
$JOINSTYLE
280
     0
  9
$LWDISPLAY
290
     1
  9
$INSUNITS
 70
     4
  9
$HYPERLINKBASE
  1

  9
$STYLESHEET
  1

  9
$XEDIT
290
     1
  9
$CEPSNTYPE
380
     0
  9
$PSTYLEMODE
290
     1
  9
$FINGERPRINTGUID
  2
{21b80b9b-ddaf-4179-9ab1-3bf252dcf449}
  9
$VERSIONGUID
  2
{FAEB1C32-E019-11D5-929B-00C0DF256EC4}
  9
$EXTNAMES
290
     1
  9
$PSVPSCALE
 40
0.0
  9
$OLESTARTUP
290
     0
  0
ENDSEC
  0
SECTION
  2
CLASSES
  0
CLASS
  1
ACDBDICTIONARYWDFLT
  2
AcDbDictionaryWithDefault
  3
ObjectDBX Classes
 90
        0
280
     0
281
     0
  0
CLASS
  1
VISUALSTYLE
  2
AcDbVisualStyle
  3
ObjectDBX Classes
 90
     4095
280
     0
281
     0
  0
CLASS
  1
MATERIAL
  2
AcDbMaterial
  3
ObjectDBX Classes
 90
     1153
280
     0
281
     0
  0
CLASS
  1
SCALE
  2
AcDbScale
  3
ObjectDBX Classes
 90
     1153
280
     0
281
     0
  0
CLASS
  1
TABLESTYLE
  2
AcDbTableStyle
  3
ObjectDBX Classes
 90
     4095
280
     0
281
     0
  0
CLASS
  1
MLEADERSTYLE
  2
AcDbMLeaderStyle
  3
ACDB_MLEADERSTYLE_CLASS
 90
     4095
280
     0
281
     0
  0
CLASS
  1
SUN
  2
AcDbSun
  3
SCENEOE
 90
     1153
280
     0
281
     0
  0
CLASS
  1
ACDBPLACEHOLDER
  2
AcDbPlaceHolder
  3
ObjectDBX Classes
 90
        0
280
     0
281
     0
  0
CLASS
  1
LAYOUT
  2
AcDbLayout
  3
ObjectDBX Classes
 90
        0
280
     0
281
     0
  0
ENDSEC
  0
SECTION
  2
TABLES
  0
TABLE
  2
VPORT
  5
8
330
0
100
AcDbSymbolTable
 70
     1
  0
VPORT
  5
29
330
8
100
AcDbSymbolTableRecord
100
AcDbViewportTableRecord
  2
*Active
 70
     0
 10
0.0
 20
0.0
 11
1.0
 21
1.0
 12
139.7
 22
107.95
 13
0.0
 23
0.0
 14
10.0
 24
10.0
 15
10.0
 25
10.0
 16
0.0
 26
0.0
 36
1.0
 17
0.0
 27
0.0
 37
0.0
 40
215.9
 41
1.2941176471
 42
50.0
 43
0.0
 44
0.0
 50
0.0
 51
0.0
 71
     0
 72
  2000
 73
     1
 74
     3
 75
     0
 76
     0
 77
     0
 78
     0
281
     0
 65
     1
110
0.0
120
0.0
130
0.0
111
1.0
121
0.0
131
0.0
112
0.0
122
1.0
132
0.0
 79
     0
146
0.0
  0
ENDTAB
  0
TABLE
  2
LTYPE
  5
5
330
0
100
AcDbSymbolTable
 70
     6
  0
LTYPE
  5
14
330
5
100
AcDbSymbolTableRecord
100
AcDbLinetypeTableRecord
  2
ByBlock
 70
     0
  3

 72
    65
 73
     0
 40
0.0
  0
LTYPE
  5
15
330
5
100
AcDbSymbolTableRecord
100
AcDbLinetypeTableRecord
  2
ByLayer
 70
     0
  3

 72
    65
 73
     0
 40
0.0
  0
LTYPE
  5
16
330
5
100
AcDbSymbolTableRecord
100
AcDbLinetypeTableRecord
  2
Continuous
 70
     0
  3
Solid line
 72
    65
 73
     0
 40
0.0
  0
LTYPE
  5
6E
330
5
100
AcDbSymbolTableRecord
100
AcDbLinetypeTableRecord
  2
HIDDEN
 70
     0
  3
Hidden __ __ __ __ __ __ __ __ __ __ __ __ __ __
 72
    65
 73
     2
 40
1.905
 49
1.27
 74
     0
 49
-0.635
 74
     0
  0
LTYPE
  5
6F
330
5
100
AcDbSymbolTableRecord
100
AcDbLinetypeTableRecord
  2
PHANTOM
 70
     0
  3
Phantom ______  __  __  ______  __  __  ______
 72
    65
 73
     6
 40
12.7
 49
6.35
 74
     0
 49
-1.27
 74
     0
 49
1.27
 74
     0
 49
-1.27
 74
     0
 49
1.27
 74
     0
 49
-1.27
 74
     0
  0
LTYPE
  5
70
330
5
100
AcDbSymbolTableRecord
100
AcDbLinetypeTableRecord
  2
CENTER
 70
     0
  3
Center ____ _ ____ _ ____ _ ____ _ ____ _ ____
 72
    65
 73
     4
 40
10.16
 49
6.35
 74
     0
 49
-1.27
 74
     0
 49
1.27
 74
     0
 49
-1.27
 74
     0
  0
LTYPE
  5
71
330
5
100
AcDbSymbolTableRecord
100
AcDbLinetypeTableRecord
  2
CENTERX2
 70
     0
  3
Center (2x) ________  __  ________  __  _____
 72
    65
 73
     4
 40
20.32
 49
12.7
 74
     0
 49
-2.54
 74
     0
 49
2.54
 74
     0
 49
-2.54
 74
     0
  0
LTYPE
  5
72
330
5
100
AcDbSymbolTableRecord
100
AcDbLinetypeTableRecord
  2
DOT2
 70
     0
  3
Dot (.5x) ........................................
 72
    65
 73
     2
 40
0.635
 49
0.0
 74
     0
 49
-0.635
 74
     0
  0
ENDTAB
  0
TABLE
  2
LAYER
  5
2
330
0
100
AcDbSymbolTable
 70
    17
  0
LAYER
  5
10
330
2
100
AcDbSymbolTableRecord
100
AcDbLayerTableRecord
  2
0
 70
     0
 62
     7
  6
Continuous
370
    -3
390
F
  0
LAYER
  5
73
330
2
100
AcDbSymbolTableRecord
100
AcDbLayerTableRecord
  2
FORMAT
 70
     0
 62
     7
  6
Continuous
370
    -3
390
F
  0
LAYER
  5
74
330
2
100
AcDbSymbolTableRecord
100
AcDbLayerTableRecord
  2
YARDIMCI_GEOMETRI
 70
     0
 62
    -6
  6
Continuous
290
     0
370
    -3
390
F
  0
LAYER
  5
75
330
2
100
AcDbSymbolTableRecord
100
AcDbLayerTableRecord
  2
SAYFA_CERCEVESI
 70
     0
 62
     7
  6
Continuous
370
    25
390
F
  0
LAYER
  5
76
330
2
100
AcDbSymbolTableRecord
100
AcDbLayerTableRecord
  2
ANTET
 70
     0
 62
     7
  6
Continuous
370
    -3
390
F
  0
LAYER
  5
77
330
2
100
AcDbSymbolTableRecord
100
AcDbLayerTableRecord
  2
OLCU
 70
     0
 62
   150
  6
Continuous
370
    -3
390
F
  0
LAYER
  5
78
330
2
100
AcDbSymbolTableRecord
100
AcDbLayerTableRecord
  2
METIN
 70
     0
 62
    96
  6
Continuous
370
    -3
390
F
  0
LAYER
  5
79
330
2
100
AcDbSymbolTableRecord
100
AcDbLayerTableRecord
  2
BALON
 70
     0
 62
     5
  6
Continuous
370
    -3
390
F
  0
LAYER
  5
7A
330
2
100
AcDbSymbolTableRecord
100
AcDbLayerTableRecord
  2
VURGU
 70
     0
 62
     7
  6
Continuous
370
    -3
390
F
  0
LAYER
  5
7B
330
2
100
AcDbSymbolTableRecord
100
AcDbLayerTableRecord
  2
SILIK
 70
     0
 62
     7
  6
Continuous
370
    -3
390
F
  0
LAYER
  5
7C
330
2
100
AcDbSymbolTableRecord
100
AcDbLayerTableRecord
  2
MODEL
 70
     0
 62
     7
  6
Continuous
370
    -3
390
F
  0
LAYER
  5
7D
330
2
100
AcDbSymbolTableRecord
100
AcDbLayerTableRecord
  2
DETAYLANDıRMA
 70
     0
 62
   190
  6
Continuous
370
    -3
390
F
  0
LAYER
  5
7E
330
2
100
AcDbSymbolTableRecord
100
AcDbLayerTableRecord
  2
TOLERANS
 70
     0
 62
   230
  6
Continuous
370
    -3
390
F
  0
LAYER
  5
7F
330
2
100
AcDbSymbolTableRecord
100
AcDbLayerTableRecord
  2
MERKEZ_CIZGILERI
 70
     0
 62
    30
  6
Continuous
370
    -3
390
F
  0
LAYER
  5
80
330
2
100
AcDbSymbolTableRecord
100
AcDbLayerTableRecord
  2
KESIT-DETAY_CIZGILERI
 70
     0
 62
     7
  6
Continuous
370
    -3
390
F
  0
LAYER
  5
81
330
2
100
AcDbSymbolTableRecord
100
AcDbLayerTableRecord
  2
\U+041E\U+0421\U+0415\U+0412\U+042B\U+0415
 70
     0
 62
     7
  6
Continuous
370
    -3
390
F
  0
LAYER
  5
82
330
2
100
AcDbSymbolTableRecord
100
AcDbLayerTableRecord
  2
\U+0412\U+041E\U+0414\U+042F\U+041D\U+042B\U+0415_\U+0417\U+041D\U+0410\U+041A\U+0418
 70
     0
 62
    11
  6
Continuous
370
    -3
390
F
  0
ENDTAB
  0
TABLE
  2
STYLE
  5
3
330
0
100
AcDbSymbolTable
 70
     1
  0
STYLE
  5
11
330
3
100
AcDbSymbolTableRecord
100
AcDbTextStyleTableRecord
  2
Standard
 70
     0
 40
0.0
 41
1.0
 50
0.0
 71
     0
 42
3.5
  3
txt
  4

  0
ENDTAB
  0
TABLE
  2
VIEW
  5
6
330
0
100
AcDbSymbolTable
 70
     0
  0
ENDTAB
  0
TABLE
  2
UCS
  5
7
330
0
100
AcDbSymbolTable
 70
     0
  0
ENDTAB
  0
TABLE
  2
APPID
  5
9
330
0
100
AcDbSymbolTable
 70
     1
  0
APPID
  5
12
330
9
100
AcDbSymbolTableRecord
100
AcDbRegAppTableRecord
  2
ACAD
 70
     0
  0
ENDTAB
  0
TABLE
  2
DIMSTYLE
  5
A
330
0
100
AcDbSymbolTable
 70
     1
100
AcDbDimStyleTable
  0
DIMSTYLE
105
27
330
A
100
AcDbSymbolTableRecord
100
AcDbDimStyleTableRecord
  2
ISO-25
 70
     0
 41
2.5
 42
0.625
 43
3.75
 44
1.25
 73
     0
 74
     0
 77
     1
 78
     8
140
2.5
141
2.5
143
0.0393700787
147
0.625
171
     3
172
     1
178
     0
271
     2
272
     2
274
     3
278
    44
283
     0
284
     8
340
11
  0
ENDTAB
  0
TABLE
  2
BLOCK_RECORD
  5
1
330
0
100
AcDbSymbolTable
 70
     5
  0
BLOCK_RECORD
  5
1F
330
1
100
AcDbSymbolTableRecord
100
AcDbBlockTableRecord
  2
*Model_Space
340
22
  0
BLOCK_RECORD
  5
1B
330
1
100
AcDbSymbolTableRecord
100
AcDbBlockTableRecord
  2
*Paper_Space
340
1E
  0
BLOCK_RECORD
  5
23
330
1
100
AcDbSymbolTableRecord
100
AcDbBlockTableRecord
  2
*Paper_Space0
340
26
  0
BLOCK_RECORD
  5
97
330
1
100
AcDbSymbolTableRecord
100
AcDbBlockTableRecord
  2
SW_CENTERMARKSYMBOL_0
340
0
102
{BLKREFS
331
A2
102
}
  0
BLOCK_RECORD
  5
AC
330
1
100
AcDbSymbolTableRecord
100
AcDbBlockTableRecord
  2
SW_CENTERMARKSYMBOL_1
340
0
102
{BLKREFS
331
B7
102
}
  0
BLOCK_RECORD
  5
BF
330
1
100
AcDbSymbolTableRecord
100
AcDbBlockTableRecord
  2
SW_CENTERMARKSYMBOL_2
340
0
102
{BLKREFS
331
CA
102
}
  0
BLOCK_RECORD
  5
D2
330
1
100
AcDbSymbolTableRecord
100
AcDbBlockTableRecord
  2
SW_CENTERMARKSYMBOL_3
340
0
102
{BLKREFS
331
DD
102
}
  0
ENDTAB
  0
ENDSEC
  0
SECTION
  2
BLOCKS
  0
BLOCK
  5
20
330
1F
100
AcDbEntity
  8
0
100
AcDbBlockBegin
  2
*Model_Space
 70
     0
 10
0.0
 20
0.0
 30
0.0
  3
*Model_Space
  1

  0
ENDBLK
  5
21
330
1F
100
AcDbEntity
  8
0
100
AcDbBlockEnd
  0
BLOCK
  5
1C
330
1B
100
AcDbEntity
 67
     1
  8
0
100
AcDbBlockBegin
  2
*Paper_Space
 70
     0
 10
0.0
 20
0.0
 30
0.0
  3
*Paper_Space
  1

  0
ENDBLK
  5
1D
330
1B
100
AcDbEntity
 67
     1
  8
0
100
AcDbBlockEnd
  0
BLOCK
  5
24
330
23
100
AcDbEntity
  8
0
100
AcDbBlockBegin
  2
*Paper_Space0
 70
     0
 10
0.0
 20
0.0
 30
0.0
  3
*Paper_Space0
  1

  0
ENDBLK
  5
25
330
23
100
AcDbEntity
  8
0
100
AcDbBlockEnd
  0
BLOCK
  5
98
330
97
100
AcDbEntity
  8
0
100
AcDbBlockBegin
  2
SW_CENTERMARKSYMBOL_0
 70
     0
 10
0.0
 20
0.0
 30
0.0
  3
SW_CENTERMARKSYMBOL_0
  1

  0
LINE
  5
9A
330
97
100
AcDbEntity
  8
FORMAT
 62
     0
100
AcDbLine
 10
0.0
 20
0.0
 30
0.0
 11
0.0
 21
2.5
 31
0.0
  0
LINE
  5
9B
330
97
100
AcDbEntity
  8
FORMAT
 62
     0
100
AcDbLine
 10
0.0
 20
0.0
 30
0.0
 11
-2.5
 21
0.0
 31
0.0
  0
LINE
  5
9C
330
97
100
AcDbEntity
  8
FORMAT
 62
     0
100
AcDbLine
 10
0.0
 20
0.0
 30
0.0
 11
0.0
 21
-2.5
 31
0.0
  0
LINE
  5
9D
330
97
100
AcDbEntity
  8
FORMAT
 62
     0
100
AcDbLine
 10
0.0
 20
0.0
 30
0.0
 11
2.5
 21
0.0
 31
0.0
  0
LINE
  5
9E
330
97
100
AcDbEntity
  8
FORMAT
 62
     0
100
AcDbLine
 10
0.0
 20
5.0
 30
0.0
 11
0.0
 21
22.5
 31
0.0
  0
LINE
  5
9F
330
97
100
AcDbEntity
  8
FORMAT
 62
     0
100
AcDbLine
 10
-5.0
 20
0.0
 30
0.0
 11
-22.5
 21
0.0
 31
0.0
  0
LINE
  5
A0
330
97
100
AcDbEntity
  8
FORMAT
 62
     0
100
AcDbLine
 10
0.0
 20
-5.0
 30
0.0
 11
0.0
 21
-22.5
 31
0.0
  0
LINE
  5
A1
330
97
100
AcDbEntity
  8
FORMAT
 62
     0
100
AcDbLine
 10
5.0
 20
0.0
 30
0.0
 11
22.5
 21
0.0
 31
0.0
  0
ENDBLK
  5
99
330
97
100
AcDbEntity
  8
0
100
AcDbBlockEnd
  0
BLOCK
  5
AD
330
AC
100
AcDbEntity
  8
0
100
AcDbBlockBegin
  2
SW_CENTERMARKSYMBOL_1
 70
     0
 10
0.0
 20
0.0
 30
0.0
  3
SW_CENTERMARKSYMBOL_1
  1

  0
LINE
  5
AF
330
AC
100
AcDbEntity
  8
FORMAT
 62
     0
100
AcDbLine
 10
0.0
 20
0.0
 30
0.0
 11
0.0
 21
2.5
 31
0.0
  0
LINE
  5
B0
330
AC
100
AcDbEntity
  8
FORMAT
 62
     0
100
AcDbLine
 10
0.0
 20
0.0
 30
0.0
 11
-2.5
 21
0.0
 31
0.0
  0
LINE
  5
B1
330
AC
100
AcDbEntity
  8
FORMAT
 62
     0
100
AcDbLine
 10
0.0
 20
0.0
 30
0.0
 11
0.0
 21
-2.5
 31
0.0
  0
LINE
  5
B2
330
AC
100
AcDbEntity
  8
FORMAT
 62
     0
100
AcDbLine
 10
0.0
 20
0.0
 30
0.0
 11
2.5
 21
0.0
 31
0.0
  0
LINE
  5
B3
330
AC
100
AcDbEntity
  8
FORMAT
 62
     0
100
AcDbLine
 10
0.0
 20
5.0
 30
0.0
 11
0.0
 21
22.5
 31
0.0
  0
LINE
  5
B4
330
AC
100
AcDbEntity
  8
FORMAT
 62
     0
100
AcDbLine
 10
-5.0
 20
0.0
 30
0.0
 11
-22.5
 21
0.0
 31
0.0
  0
LINE
  5
B5
330
AC
100
AcDbEntity
  8
FORMAT
 62
     0
100
AcDbLine
 10
0.0
 20
-5.0
 30
0.0
 11
0.0
 21
-22.5
 31
0.0
  0
LINE
  5
B6
330
AC
100
AcDbEntity
  8
FORMAT
 62
     0
100
AcDbLine
 10
5.0
 20
0.0
 30
0.0
 11
22.5
 21
0.0
 31
0.0
  0
ENDBLK
  5
AE
330
AC
100
AcDbEntity
  8
0
100
AcDbBlockEnd
  0
BLOCK
  5
C0
330
BF
100
AcDbEntity
  8
0
100
AcDbBlockBegin
  2
SW_CENTERMARKSYMBOL_2
 70
     0
 10
0.0
 20
0.0
 30
0.0
  3
SW_CENTERMARKSYMBOL_2
  1

  0
LINE
  5
C2
330
BF
100
AcDbEntity
  8
FORMAT
 62
     0
100
AcDbLine
 10
0.0
 20
0.0
 30
0.0
 11
0.0
 21
2.5
 31
0.0
  0
LINE
  5
C3
330
BF
100
AcDbEntity
  8
FORMAT
 62
     0
100
AcDbLine
 10
0.0
 20
0.0
 30
0.0
 11
-2.5
 21
0.0
 31
0.0
  0
LINE
  5
C4
330
BF
100
AcDbEntity
  8
FORMAT
 62
     0
100
AcDbLine
 10
0.0
 20
0.0
 30
0.0
 11
0.0
 21
-2.5
 31
0.0
  0
LINE
  5
C5
330
BF
100
AcDbEntity
  8
FORMAT
 62
     0
100
AcDbLine
 10
0.0
 20
0.0
 30
0.0
 11
2.5
 21
0.0
 31
0.0
  0
LINE
  5
C6
330
BF
100
AcDbEntity
  8
FORMAT
 62
     0
100
AcDbLine
 10
0.0
 20
5.0
 30
0.0
 11
0.0
 21
22.5
 31
0.0
  0
LINE
  5
C7
330
BF
100
AcDbEntity
  8
FORMAT
 62
     0
100
AcDbLine
 10
-5.0
 20
0.0
 30
0.0
 11
-22.5
 21
0.0
 31
0.0
  0
LINE
  5
C8
330
BF
100
AcDbEntity
  8
FORMAT
 62
     0
100
AcDbLine
 10
0.0
 20
-5.0
 30
0.0
 11
0.0
 21
-22.5
 31
0.0
  0
LINE
  5
C9
330
BF
100
AcDbEntity
  8
FORMAT
 62
     0
100
AcDbLine
 10
5.0
 20
0.0
 30
0.0
 11
22.5
 21
0.0
 31
0.0
  0
ENDBLK
  5
C1
330
BF
100
AcDbEntity
  8
0
100
AcDbBlockEnd
  0
BLOCK
  5
D3
330
D2
100
AcDbEntity
  8
0
100
AcDbBlockBegin
  2
SW_CENTERMARKSYMBOL_3
 70
     0
 10
0.0
 20
0.0
 30
0.0
  3
SW_CENTERMARKSYMBOL_3
  1

  0
LINE
  5
D5
330
D2
100
AcDbEntity
  8
FORMAT
 62
     0
100
AcDbLine
 10
0.0
 20
0.0
 30
0.0
 11
0.0
 21
2.5
 31
0.0
  0
LINE
  5
D6
330
D2
100
AcDbEntity
  8
FORMAT
 62
     0
100
AcDbLine
 10
0.0
 20
0.0
 30
0.0
 11
-2.5
 21
0.0
 31
0.0
  0
LINE
  5
D7
330
D2
100
AcDbEntity
  8
FORMAT
 62
     0
100
AcDbLine
 10
0.0
 20
0.0
 30
0.0
 11
0.0
 21
-2.5
 31
0.0
  0
LINE
  5
D8
330
D2
100
AcDbEntity
  8
FORMAT
 62
     0
100
AcDbLine
 10
0.0
 20
0.0
 30
0.0
 11
2.5
 21
0.0
 31
0.0
  0
LINE
  5
D9
330
D2
100
AcDbEntity
  8
FORMAT
 62
     0
100
AcDbLine
 10
0.0
 20
5.0
 30
0.0
 11
0.0
 21
22.5
 31
0.0
  0
LINE
  5
DA
330
D2
100
AcDbEntity
  8
FORMAT
 62
     0
100
AcDbLine
 10
-5.0
 20
0.0
 30
0.0
 11
-22.5
 21
0.0
 31
0.0
  0
LINE
  5
DB
330
D2
100
AcDbEntity
  8
FORMAT
 62
     0
100
AcDbLine
 10
0.0
 20
-5.0
 30
0.0
 11
0.0
 21
-22.5
 31
0.0
  0
LINE
  5
DC
330
D2
100
AcDbEntity
  8
FORMAT
 62
     0
100
AcDbLine
 10
5.0
 20
0.0
 30
0.0
 11
22.5
 21
0.0
 31
0.0
  0
ENDBLK
  5
D4
330
D2
100
AcDbEntity
  8
0
100
AcDbBlockEnd
  0
ENDSEC
  0
SECTION
  2
ENTITIES
  0
LINE
  5
83
330
1F
100
AcDbEntity
  8
0
  6
Continuous
 62
     7
370
    25
100
AcDbLine
 10
95.6639821927
 20
120.4901379235
 30
0.0
 11
95.6639821927
 21
60.4901379235
 31
0.0
  0
LINE
  5
84
330
1F
100
AcDbEntity
  8
0
  6
Continuous
 62
     7
370
    25
100
AcDbLine
 10
135.6639821927
 20
60.4901379235
 30
0.0
 11
135.6639821927
 21
120.4901379235
 31
0.0
  0
ARC
  5
85
330
1F
100
AcDbEntity
  8
0
  6
Continuous
 62
     7
370
    25
100
AcDbCircle
 10
135.6639821927
 20
120.4901379235
 30
0.0
 40
40.0
100
AcDbArc
 50
90.0
 51
180.0
  0
LINE
  5
86
330
1F
100
AcDbEntity
  8
0
  6
Continuous
 62
     7
370
    25
100
AcDbLine
 10
195.6639821927
 20
160.4901379235
 30
0.0
 11
135.6639821927
 21
160.4901379235
 31
0.0
  0
LINE
  5
87
330
1F
100
AcDbEntity
  8
0
  6
Continuous
 62
     7
370
    25
100
AcDbLine
 10
135.6639821927
 20
120.4901379235
 30
0.0
 11
195.6639821927
 21
120.4901379235
 31
0.0
  0
LINE
  5
88
330
1F
100
AcDbEntity
  8
0
  6
Continuous
 62
     7
370
    25
100
AcDbLine
 10
115.6639821927
 20
60.4901379235
 30
0.0
 11
135.6639821927
 21
60.4901379235
 31
0.0
  0
LINE
  5
89
330
1F
100
AcDbEntity
  8
0
  6
Continuous
 62
     7
370
    25
100
AcDbLine
 10
95.6639821927
 20
60.4901379235
 30
0.0
 11
115.6639821927
 21
60.4901379235
 31
0.0
  0
LINE
  5
8A
330
1F
100
AcDbEntity
  8
0
  6
Continuous
 62
     7
370
    25
100
AcDbLine
 10
195.6639821927
 20
140.4901379235
 30
0.0
 11
195.6639821927
 21
120.4901379235
 31
0.0
  0
LINE
  5
8B
330
1F
100
AcDbEntity
  8
0
  6
Continuous
 62
     7
370
    25
100
AcDbLine
 10
195.6639821927
 20
160.4901379235
 30
0.0
 11
195.6639821927
 21
140.4901379235
 31
0.0
  0
LINE
  5
8C
330
1F
100
AcDbEntity
  8
0
  6
Continuous
 62
     1
370
    25
100
AcDbLine
 10
95.6639821927
 20
120.4901379235
 30
0.0
 11
135.6639821927
 21
120.4901379235
 31
0.0
  0
LINE
  5
8D
330
1F
100
AcDbEntity
  8
0
  6
Continuous
 62
     1
370
    25
100
AcDbLine
 10
135.6639821927
 20
160.4901379235
 30
0.0
 11
135.6639821927
 21
120.4901379235
 31
0.0
  0
LINE
  5
8E
330
1F
100
AcDbEntity
  8
0
  6
Continuous
 62
     7
370
    25
100
AcDbLine
 10
16.9118673526
 20
140.4901379235
 30
0.0
 11
16.9118673526
 21
120.4901379235
 31
0.0
  0
LINE
  5
8F
330
1F
100
AcDbEntity
  8
0
  6
Continuous
 62
     7
370
    25
100
AcDbLine
 10
56.9118673526
 20
120.4901379235
 30
0.0
 11
56.9118673526
 21
140.4901379235
 31
0.0
  0
LINE
  5
90
330
1F
100
AcDbEntity
  8
0
  6
Continuous
 62
     7
370
    25
100
AcDbLine
 10
16.9118673526
 20
120.4901379235
 30
0.0
 11
16.9118673526
 21
60.4901379235
 31
0.0
  0
LINE
  5
91
330
1F
100
AcDbEntity
  8
0
  6
Continuous
 62
     7
370
    25
100
AcDbLine
 10
56.9118673526
 20
60.4901379235
 30
0.0
 11
56.9118673526
 21
120.4901379235
 31
0.0
  0
CIRCLE
  5
92
330
1F
100
AcDbEntity
  8
0
  6
Continuous
 62
     7
370
    25
100
AcDbCircle
 10
36.9118673526
 20
140.4901379235
 30
0.0
 40
19.99999999999999
  0
CIRCLE
  5
93
330
1F
100
AcDbEntity
  8
0
  6
Continuous
 62
     7
370
    25
100
AcDbCircle
 10
36.9118673526
 20
140.4901379235
 30
0.0
 40
16.29999999999998
  0
LINE
  5
94
330
1F
100
AcDbEntity
  8
0
  6
Continuous
 62
     7
370
    25
100
AcDbLine
 10
16.9118673526
 20
60.4901379235
 30
0.0
 11
56.9118673526
 21
60.4901379235
 31
0.0
  0
LINE
  5
95
330
1F
100
AcDbEntity
  8
0
  6
Continuous
 62
     1
370
    25
100
AcDbLine
 10
36.9118673526
 20
120.4901379235
 30
0.0
 11
56.9118673526
 21
120.4901379235
 31
0.0
  0
LINE
  5
96
330
1F
100
AcDbEntity
  8
0
  6
Continuous
 62
     1
370
    25
100
AcDbLine
 10
16.9118673526
 20
120.4901379235
 30
0.0
 11
36.9118673526
 21
120.4901379235
 31
0.0
  0
INSERT
  5
A2
330
1F
100
AcDbEntity
  8
FORMAT
 62
     7
100
AcDbBlockReference
  2
SW_CENTERMARKSYMBOL_0
 10
36.9118673526
 20
140.4901379235
 30
0.0
  0
LINE
  5
A3
330
1F
100
AcDbEntity
  8
0
  6
Continuous
 62
     7
370
    25
100
AcDbLine
 10
195.6639821927
 20
242.8939734008
 30
0.0
 11
135.6639821927
 21
242.8939734008
 31
0.0
  0
LINE
  5
A4
330
1F
100
AcDbEntity
  8
0
  6
Continuous
 62
     7
370
    25
100
AcDbLine
 10
135.6639821927
 20
202.8939734008
 30
0.0
 11
195.6639821927
 21
202.8939734008
 31
0.0
  0
LINE
  5
A5
330
1F
100
AcDbEntity
  8
0
  6
Continuous
 62
     7
370
    25
100
AcDbLine
 10
135.6639821927
 20
242.8939734008
 30
0.0
 11
115.6639821927
 21
242.8939734008
 31
0.0
  0
LINE
  5
A6
330
1F
100
AcDbEntity
  8
0
  6
Continuous
 62
     7
370
    25
100
AcDbLine
 10
115.6639821927
 20
202.8939734008
 30
0.0
 11
135.6639821927
 21
202.8939734008
 31
0.0
  0
CIRCLE
  5
A7
330
1F
100
AcDbEntity
  8
0
  6
Continuous
 62
     7
370
    25
100
AcDbCircle
 10
115.6639821927
 20
222.8939734008
 30
0.0
 40
16.29999999999998
  0
CIRCLE
  5
A8
330
1F
100
AcDbEntity
  8
0
  6
Continuous
 62
     7
370
    25
100
AcDbCircle
 10
115.6639821927
 20
222.8939734008
 30
0.0
 40
20.0
  0
LINE
  5
A9
330
1F
100
AcDbEntity
  8
0
  6
Continuous
 62
     7
370
    25
100
AcDbLine
 10
195.6639821927
 20
242.8939734008
 30
0.0
 11
195.6639821927
 21
202.8939734008
 31
0.0
  0
LINE
  5
AA
330
1F
100
AcDbEntity
  8
0
  6
Continuous
 62
     1
370
    25
100
AcDbLine
 10
135.6639821927
 20
222.8939734008
 30
0.0
 11
135.6639821927
 21
202.8939734008
 31
0.0
  0
LINE
  5
AB
330
1F
100
AcDbEntity
  8
0
  6
Continuous
 62
     1
370
    25
100
AcDbLine
 10
135.6639821927
 20
242.8939734008
 30
0.0
 11
135.6639821927
 21
222.8939734008
 31
0.0
  0
INSERT
  5
B7
330
1F
100
AcDbEntity
  8
FORMAT
 62
     7
100
AcDbBlockReference
  2
SW_CENTERMARKSYMBOL_1
 10
115.6639821927
 20
222.8939734008
 30
0.0
  0
LINE
  5
B8
330
1F
100
AcDbEntity
  8
0
  6
Continuous
 62
     7
370
    25
100
AcDbLine
 10
232.3728660453
 20
120.4901379235
 30
0.0
 11
232.3728660453
 21
60.4901379235
 31
0.0
  0
LINE
  5
B9
330
1F
100
AcDbEntity
  8
0
  6
Continuous
 62
     7
370
    25
100
AcDbLine
 10
272.3728660453
 20
60.4901379235
 30
0.0
 11
272.3728660453
 21
120.4901379235
 31
0.0
  0
LINE
  5
BA
330
1F
100
AcDbEntity
  8
0
  6
Continuous
 62
     7
370
    25
100
AcDbLine
 10
272.3728660453
 20
120.4901379235
 30
0.0
 11
272.3728660453
 21
140.4901379235
 31
0.0
  0
LINE
  5
BB
330
1F
100
AcDbEntity
  8
0
  6
Continuous
 62
     7
370
    25
100
AcDbLine
 10
232.3728660453
 20
140.4901379235
 30
0.0
 11
232.3728660453
 21
120.4901379235
 31
0.0
  0
LINE
  5
BC
330
1F
100
AcDbEntity
  8
0
  6
Continuous
 62
     7
370
    25
100
AcDbLine
 10
232.3728660453
 20
60.4901379235
 30
0.0
 11
272.3728660453
 21
60.4901379235
 31
0.0
  0
LWPOLYLINE
  5
BD
330
1F
100
AcDbEntity
  8
0
  6
Continuous
 62
     7
370
    25
100
AcDbPolyline
 90
       46
 70
   128
 43
0.0
 10
232.3728660453
 20
140.4901379235
 10
232.4238237531
 20
141.9169215875
 10
232.5764372077
 20
143.336434689
 10
232.8299287258
 20
144.7414437146
 10
233.183006573
 20
146.1247890604
 10
233.6338715453
 20
147.4794215155
 10
234.1802261382
 20
148.7984381836
 10
234.8192862539
 20
150.0751176579
 10
235.5477953886
 20
151.3029542726
 10
236.3620412268
 20
152.4756912538
 10
237.2578745582
 20
153.5873526024
 10
238.2307304215
 20
154.6322735473
 10
239.2756513664
 20
155.6051294106
 10
240.387312715
 20
156.500962742
 10
241.5600496962
 20
157.3152085802
 10
242.7878863109
 20
158.0437177149
 10
244.0645657852
 20
158.6827778306
 10
245.3835824533
 20
159.2291324235
 10
246.7382149084
 20
159.6799973958
 10
248.1215602542
 20
160.033075243
 10
249.5265692798
 20
160.2865667611
 10
250.9460823813
 20
160.4391802157
 10
252.3728660453
 20
160.4901379235
 10
253.7996497093
 20
160.4391802157
 10
255.2191628107
 20
160.2865667611
 10
256.6241718363
 20
160.033075243
 10
258.0075171821
 20
159.6799973958
 10
259.3621496373
 20
159.2291324235
 10
260.6811663053
 20
158.6827778306
 10
261.9578457797
 20
158.0437177149
 10
263.1856823944
 20
157.3152085802
 10
264.3584193755
 20
156.500962742
 10
265.4700807242
 20
155.6051294106
 10
266.515001669
 20
154.6322735473
 10
267.4878575324
 20
153.5873526024
 10
268.3836908638
 20
152.4756912538
 10
269.1979367019
 20
151.3029542726
 10
269.9264458366
 20
150.0751176579
 10
270.5655059524
 20
148.7984381836
 10
271.1118605453
 20
147.4794215155
 10
271.5627255176
 20
146.1247890604
 10
271.9158033647
 20
144.7414437146
 10
272.1692948829
 20
143.336434689
 10
272.3219083375
 20
141.9169215875
 10
272.3728660453
 20
140.4901379235
 10
272.3728660453
 20
140.4901379235
  0
LINE
  5
BE
330
1F
100
AcDbEntity
  8
0
  6
Continuous
 62
     1
370
    25
100
AcDbLine
 10
232.3728660453
 20
120.4901379235
 30
0.0
 11
272.3728660453
 21
120.4901379235
 31
0.0
  0
INSERT
  5
CA
330
1F
100
AcDbEntity
  8
FORMAT
 62
     7
100
AcDbBlockReference
  2
SW_CENTERMARKSYMBOL_2
 10
252.3728660453
 20
140.4901379235
 30
0.0
  0
LINE
  5
CB
330
1F
100
AcDbEntity
  8
0
  6
Continuous
 62
     7
370
    25
100
AcDbLine
 10
115.6639821927
 20
-21.062306932
 30
0.0
 11
135.6639821927
 21
-21.062306932
 31
0.0
  0
LINE
  5
CC
330
1F
100
AcDbEntity
  8
0
  6
Continuous
 62
     7
370
    25
100
AcDbLine
 10
135.6639821927
 20
18.937693068
 30
0.0
 11
115.6639821927
 21
18.937693068
 31
0.0
  0
LINE
  5
CD
330
1F
100
AcDbEntity
  8
0
  6
Continuous
 62
     7
370
    25
100
AcDbLine
 10
195.6639821927
 20
18.937693068
 30
0.0
 11
135.6639821927
 21
18.937693068
 31
0.0
  0
LINE
  5
CE
330
1F
100
AcDbEntity
  8
0
  6
Continuous
 62
     7
370
    25
100
AcDbLine
 10
135.6639821927
 20
-21.062306932
 30
0.0
 11
195.6639821927
 21
-21.062306932
 31
0.0
  0
LWPOLYLINE
  5
CF
330
1F
100
AcDbEntity
  8
0
  6
Continuous
 62
     7
370
    25
100
AcDbPolyline
 90
       46
 70
   128
 43
0.0
 10
115.6639821927
 20
18.937693068
 10
114.2371985287
 20
18.8867353602
 10
112.8176854272
 20
18.7341219056
 10
111.4126764016
 20
18.4806303874
 10
110.0293310559
 20
18.1275525403
 10
108.6746986007
 20
17.676687568
 10
107.3556819327
 20
17.1303329751
 10
106.0790024583
 20
16.4912728594
 10
104.8511658436
 20
15.7627637246
 10
103.6784288625
 20
14.9485178865
 10
102.5667675138
 20
14.0526845551
 10
101.521846569
 20
13.0798286917
 10
100.5489907056
 20
12.0349077469
 10
99.6531573742
 20
10.9232463982
 10
98.8389115361
 20
9.7505094171
 10
98.1104024014
 20
8.5226728024
 10
97.4713422856
 20
7.245993328
 10
96.9249876927
 20
5.92697666
 10
96.4741227204
 20
4.5723442048
 10
96.1210448733
 20
3.1889988591
 10
95.8675533551
 20
1.7839898335
 10
95.7149399005
 20
0.364476732
 10
95.6639821927
 20
-1.062306932
 10
95.7149399005
 20
-2.489090596
 10
95.8675533551
 20
-3.9086036975
 10
96.1210448733
 20
-5.3136127231
 10
96.4741227204
 20
-6.6969580688
 10
96.9249876927
 20
-8.051590524
 10
97.4713422856
 20
-9.370607192
 10
98.1104024014
 20
-10.6472866664
 10
98.8389115361
 20
-11.8751232811
 10
99.6531573742
 20
-13.0478602622
 10
100.5489907056
 20
-14.1595216109
 10
101.521846569
 20
-15.2044425557
 10
102.5667675138
 20
-16.1772984191
 10
103.6784288625
 20
-17.0731317505
 10
104.8511658436
 20
-17.8873775886
 10
106.0790024583
 20
-18.6158867233
 10
107.3556819327
 20
-19.2549468391
 10
108.6746986007
 20
-19.801301432
 10
110.0293310559
 20
-20.2521664043
 10
111.4126764016
 20
-20.6052442514
 10
112.8176854272
 20
-20.8587357696
 10
114.2371985287
 20
-21.0113492242
 10
115.6639821927
 20
-21.062306932
 10
115.6639821927
 20
-21.062306932
  0
LINE
  5
D0
330
1F
100
AcDbEntity
  8
0
  6
Continuous
 62
     7
370
    25
100
AcDbLine
 10
195.6639821927
 20
18.937693068
 30
0.0
 11
195.6639821927
 21
-21.062306932
 31
0.0
  0
LINE
  5
D1
330
1F
100
AcDbEntity
  8
0
  6
Continuous
 62
     1
370
    25
100
AcDbLine
 10
135.6639821927
 20
18.937693068
 30
0.0
 11
135.6639821927
 21
-21.062306932
 31
0.0
  0
INSERT
  5
DD
330
1F
100
AcDbEntity
  8
FORMAT
 62
     7
100
AcDbBlockReference
  2
SW_CENTERMARKSYMBOL_3
 10
115.6639821927
 20
-1.062306932
 30
0.0
  0
LINE
  5
DE
330
1F
100
AcDbEntity
  8
0
  6
Continuous
 62
     7
370
    25
100
AcDbLine
 10
292.108025014
 20
49.9587551359
 30
0.0
 11
249.6816181428
 21
25.4665117813
 31
0.0
  0
LINE
  5
DF
330
1F
100
AcDbEntity
  8
0
  6
Continuous
 62
     7
370
    25
100
AcDbLine
 10
269.6799927955
 20
-9.175442714
 30
0.0
 11
312.1063996667
 21
15.3168006407
 31
0.0
  0
LINE
  5
E0
330
1F
100
AcDbEntity
  8
0
  6
Continuous
 62
     7
370
    25
100
AcDbLine
 10
225.5386698454
 20
-16.3493628223
 30
0.0
 11
225.5386698454
 21
-65.3418115354
 31
0.0
  0
LINE
  5
E1
330
1F
100
AcDbEntity
  8
0
  6
Continuous
 62
     7
370
    25
100
AcDbLine
 10
265.5386698454
 20
-65.3418115354
 30
0.0
 11
265.5386698454
 21
-16.3493628223
 31
0.0
  0
SPLINE
  5
E2
330
1F
100
AcDbEntity
  8
0
  6
Continuous
 62
     7
370
    25
100
AcDbSpline
210
0.0
220
0.0
230
1.0
 70
     8
 71
     3
 72
    34
 73
    30
 74
     0
 42
0.00000001
 43
0.00000001
 40
0.0
 40
0.0
 40
0.0
 40
0.0
 40
0.0243039772022192
 40
0.0616369087491697
 40
0.0990791162004909
 40
0.1367193461477247
 40
0.174468596963278
 40
0.2122293354560834
 40
0.2499481092969434
 40
0.2875901820651818
 40
0.3251386519736544
 40
0.3625919292488257
 40
0.3999606893605009
 40
0.4372649146710947
 40
0.4745313217105763
 40
0.5117912422863844
 40
0.5490788907277354
 40
0.5864202654570368
 40
0.623849084914848
 40
0.6614002326422735
 40
0.6991058887234505
 40
0.7369934313830314
 40
0.7750827603140698
 40
0.8133829548856564
 40
0.8518883520862626
 40
0.890574436966671
 40
0.9293943836466481
 40
0.9682567227233119
 40
0.9999999999999999
 40
0.9999999999999999
 40
0.9999999999999999
 40
0.9999999999999999
 10
249.6816181427776
 20
25.46651178125942
 30
0.0
 10
249.3414261671314
 20
25.26599322680894
 30
0.0
 10
248.4786710062932
 20
24.7574614856727
 30
0.0
 10
247.124236199878
 20
23.87282242970116
 30
0.0
 10
245.6235981654147
 20
22.80109301606973
 30
0.0
 10
244.157553348229
 20
21.65419609656435
 30
0.0
 10
242.7283556939572
 20
20.43697122969857
 30
0.0
 10
241.3408260728917
 20
19.15429637021417
 30
0.0
 10
239.9987079662101
 20
17.81151040582771
 30
0.0
 10
238.7047683601064
 20
16.41324073425369
 30
0.0
 10
237.4611590223222
 20
14.96375135987233
 30
0.0
 10
236.2695823911213
 20
13.46685234276167
 30
0.0
 10
235.131437560171
 20
11.9259254340771
 30
0.0
 10
234.0479578713565
 20
10.34396366939199
 30
0.0
 10
233.0203224797397
 20
8.7236278338653
 30
0.0
 10
232.0497445044278
 20
7.067304131052519
 30
0.0
 10
231.1376178022292
 20
5.377305817194262
 30
0.0
 10
230.285483753249
 20
3.655824183762805
 30
0.0
 10
229.4950491694973
 20
1.904944041019214
 30
0.0
 10
228.768167963811
 20
0.1265443048653822
 30
0.0
 10
228.1069452867204
 20
-1.67751382481577
 30
0.0
 10
227.5137800375733
 20
-3.505248752568503
 30
0.0
 10
226.991399265843
 20
-5.354420695927953
 30
0.0
 10
226.5427930419178
 20
-7.222366129839945
 30
0.0
 10
226.1714047078355
 20
-9.105775270538665
 30
0.0
 10
225.8801706179605
 20
-11.00056243177115
 30
0.0
 10
225.6746503920705
 20
-12.90104424578942
 30
0.0
 10
225.5580311178487
 20
-14.6860206733086
 30
0.0
 10
225.5446747001521
 20
-15.83348102652257
 30
0.0
 10
225.5386698454073
 20
-16.34936282229628
 30
0.0
  0
SPLINE
  5
E3
330
1F
100
AcDbEntity
  8
0
  6
Continuous
 62
     7
370
    25
100
AcDbSpline
210
0.0
220
0.0
230
1.0
 70
     8
 71
     3
 72
    30
 73
    26
 74
     0
 42
0.00000001
 43
0.00000001
 40
0.0
 40
0.0
 40
0.0
 40
0.0
 40
0.0141757215787133
 40
0.0615973384906757
 40
0.1073246811760782
 40
0.1519044668558227
 40
0.1958157030195693
 40
0.2394570383668809
 40
0.2831375099003457
 40
0.3270516253239916
 40
0.3712933968761813
 40
0.4159266740392654
 40
0.4609398450681826
 40
0.5062638941808767
 40
0.5517941011193134
 40
0.5973877442970832
 40
0.6429332254652596
 40
0.6883838830696823
 40
0.7337669383201728
 40
0.7792031622070676
 40
0.8249114728468375
 40
0.8711328754843286
 40
0.9182703730523103
 40
0.9668232800204225
 40
1.0
 40
1.0
 40
1.0
 40
1.0
 10
265.5386168390025
 20
-16.36007281552718
 30
0.0
 10
265.5385761307041
 20
-16.36271800612383
 30
0.0
 10
265.5383992421545
 20
-16.37421207361443
 30
0.0
 10
265.5414589456104
 20
-16.31118879870878
 30
0.0
 10
265.5580237600189
 20
-16.16936347640945
 30
0.0
 10
265.5944036972023
 20
-15.94577800045507
 30
0.0
 10
265.6562073671082
 20
-15.65355117108615
 30
0.0
 10
265.7482808857789
 20
-15.29721783220147
 30
0.0
 10
265.8743189258548
 20
-14.88483492569339
 30
0.0
 10
266.036689322797
 20
-14.425219066471
 30
0.0
 10
266.2362201590853
 20
-13.92866532641874
 30
0.0
 10
266.4720730963198
 20
-13.4065014865105
 30
0.0
 10
266.7416657303734
 20
-12.87085010476837
 30
0.0
 10
267.0405204193685
 20
-12.33446646284021
 30
0.0
 10
267.3622377824047
 20
-11.81035899259678
 30
0.0
 10
267.6986858172048
 20
-11.311131488477
 30
0.0
 10
268.0403690515838
 20
-10.84826452880841
 30
0.0
 10
268.3769475451072
 20
-10.43145853005139
 30
0.0
 10
268.6976328444947
 20
-10.06831444229844
 30
0.0
 10
268.9916387846897
 20
-9.764127177065749
 30
0.0
 10
269.2479512862139
 20
-9.522231194767048
 30
0.0
 10
269.4572510885903
 20
-9.342870598512874
 30
0.0
 10
269.606545295217
 20
-9.226867148789044
 30
0.0
 10
269.689559740366
 20
-9.169932284986984
 30
0.0
 10
269.6885951580813
 20
-9.17067425752975
 30
0.0
 10
269.6882036026865
 20
-9.170975448373301
 30
0.0
  0
LWPOLYLINE
  5
E4
330
1F
100
AcDbEntity
  8
0
  6
Continuous
 62
     7
370
    25
100
AcDbPolyline
 90
       89
 70
   128
 43
0.0
 10
287.9650767166
 20
40.8018590066
 10
288.0011092573
 20
39.6160307722
 10
288.109023266
 20
38.3946429607
 10
288.2882688375
 20
37.1439194843
 10
288.5379325775
 20
35.8702337433
 10
288.8567422568
 20
34.5800761482
 10
289.2430732943
 20
33.2800210464
 10
289.6949570358
 20
31.9766932207
 10
290.2100907851
 20
30.6767341309
 10
290.7858495388
 20
29.3867680706
 10
291.4192993622
 20
28.1133684111
 10
292.1072123403
 20
26.8630241052
 10
292.8460830262
 20
25.6421066209
 10
293.6321463043
 20
24.4568374738
 10
294.4613965761
 20
23.3132565239
 10
295.3296081726
 20
22.2171911974
 10
296.2323568863
 20
21.1742267921
 10
297.1650425168
 20
20.1896780155
 10
298.1229123119
 20
19.2685619025
 10
299.1010851866
 20
18.4155722497
 10
300.0945765962
 20
17.6350556968
 10
301.0983239362
 20
16.9309895773
 10
302.1072123403
 20
16.3069616506
 10
303.1161007444
 20
15.7661518202
 10
304.1198480845
 20
15.3113159288
 10
305.1133394941
 20
14.9447717161
 10
306.0915123688
 20
14.6683870072
 10
307.0493821639
 20
14.4835701952
 10
307.9820677943
 20
14.3912630644
 10
308.8848165081
 20
14.3919359906
 10
309.7530281045
 20
14.4855855448
 10
310.5822783764
 20
14.6717345103
 10
311.3683416544
 20
14.9494343147
 10
312.1072123403
 20
15.3172698635
 10
312.7951253184
 20
15.7733667509
 10
313.4285751419
 20
16.3154008118
 10
314.0043338956
 20
16.9406099648
 10
314.5194676449
 20
17.6458082875
 10
314.9713513863
 20
18.4274022508
 10
315.3576824239
 20
19.281409031
 10
315.6764921032
 20
20.2034768054
 10
315.9261558432
 20
21.1889069279
 10
316.1054014147
 20
22.2326778725
 10
316.2133154233
 20
23.3294708217
 10
316.2493479641
 20
24.4736967701
 10
316.2133154233
 20
25.6595250045
 10
316.1054014147
 20
26.880912816
 10
315.9261558432
 20
28.1316362923
 10
315.6764921032
 20
29.4053220333
 10
315.3576824239
 20
30.6954796284
 10
314.9713513863
 20
31.9955347302
 10
314.5194676449
 20
33.298862556
 10
314.0043338956
 20
34.5988216458
 10
313.4285751419
 20
35.8887877061
 10
312.7951253184
 20
37.1621873656
 10
312.1072123403
 20
38.4125316715
 10
311.3683416544
 20
39.6334491558
 10
310.5822783764
 20
40.8187183028
 10
309.7530281045
 20
41.9622992528
 10
308.8848165081
 20
43.0583645792
 10
307.9820677943
 20
44.1013289845
 10
307.0493821639
 20
45.0858777611
 10
306.0915123688
 20
46.0069938741
 10
305.1133394941
 20
46.8599835269
 10
304.1198480845
 20
47.6405000798
 10
303.1161007444
 20
48.3445661994
 10
302.1072123403
 20
48.968594126
 10
301.0983239362
 20
49.5094039565
 10
300.0945765962
 20
49.9642398478
 10
299.1010851866
 20
50.3307840606
 10
298.1229123119
 20
50.6071687695
 10
297.1650425168
 20
50.7919855814
 10
296.2323568863
 20
50.8842927123
 10
295.3296081726
 20
50.8836197861
 10
294.4613965761
 20
50.7899702319
 10
293.6321463043
 20
50.6038212663
 10
292.8460830262
 20
50.3261214619
 10
292.1072123403
 20
49.9582859132
 10
291.4192993622
 20
49.5021890258
 10
290.7858495388
 20
48.9601549649
 10
290.2100907851
 20
48.3349458118
 10
289.6949570358
 20
47.6297474892
 10
289.2430732943
 20
46.8481535259
 10
288.8567422568
 20
45.9941467456
 10
288.5379325775
 20
45.0720789712
 10
288.2882688375
 20
44.0866488487
 10
288.109023266
 20
43.0428779041
 10
288.0011092573
 20
41.9460849549
 10
287.9650767166
 20
40.8018590066
  0
LWPOLYLINE
  5
E5
330
1F
100
AcDbEntity
  8
0
  6
Continuous
 62
     7
370
    25
100
AcDbPolyline
 90
       81
 70
   128
 43
0.0
 10
290.581371807
 20
39.2915039997
 10
290.6169021268
 20
40.3152531584
 10
290.72327403
 20
41.291668129
 10
290.8998316984
 20
42.2147289886
 10
291.1454865953
 20
43.07874476
 10
291.4587241766
 20
43.8783884986
 10
291.8376132284
 20
44.608730135
 10
292.2798177737
 20
45.26526687
 10
292.7826114744
 20
45.8439509364
 10
293.3428944402
 20
46.3412145544
 10
293.9572123403
 20
46.7539919286
 10
294.6217777006
 20
47.079738149
 10
295.3324932546
 20
47.3164448821
 10
296.0849772045
 20
47.4626527519
 10
296.8745902367
 20
47.5174603384
 10
297.6964641241
 20
47.4805297347
 10
298.5455317411
 20
47.3520886301
 10
299.4165583033
 20
47.1329289067
 10
300.3041736424
 20
46.8244017573
 10
301.2029053146
 20
46.4284093541
 10
302.1072123403
 20
45.9473931221
 10
303.0115193661
 20
45.3843186862
 10
303.9102510383
 20
44.7426575877
 10
304.7978663774
 20
44.0263658806
 10
305.6688929396
 20
43.2398597414
 10
306.5179605565
 20
42.3879882421
 10
307.339834444
 20
41.4760034536
 10
308.1294474761
 20
40.5095280655
 10
308.8819314261
 20
39.49452072
 10
309.5926469801
 20
38.4372392748
 10
310.2572123403
 20
37.3442022216
 10
310.8715302404
 20
36.2221484974
 10
311.4318132063
 20
35.0779959364
 10
311.934606907
 20
33.9187986197
 10
312.3768114523
 20
32.7517033843
 10
312.7557005041
 20
31.5839057602
 10
313.0689380853
 20
30.4226056083
 10
313.3145929823
 20
29.2749627301
 10
313.4911506507
 20
28.1480527256
 10
313.5975225539
 20
27.0488233697
 10
313.6330528737
 20
25.984051777
 10
313.5975225539
 20
24.9603026183
 10
313.4911506507
 20
23.9838876476
 10
313.3145929823
 20
23.0608267881
 10
313.0689380853
 20
22.1968110167
 10
312.7557005041
 20
21.397167278
 10
312.3768114523
 20
20.6668256416
 10
311.934606907
 20
20.0102889066
 10
311.4318132063
 20
19.4316048402
 10
310.8715302404
 20
18.9343412222
 10
310.2572123403
 20
18.5215638481
 10
309.5926469801
 20
18.1958176276
 10
308.8819314261
 20
17.9591108946
 10
308.1294474761
 20
17.8129030247
 10
307.339834444
 20
17.7580954382
 10
306.5179605565
 20
17.795026042
 10
305.6688929396
 20
17.9234671466
 10
304.7978663774
 20
18.1426268699
 10
303.9102510383
 20
18.4511540194
 10
303.0115193661
 20
18.8471464226
 10
302.1072123403
 20
19.3281626546
 10
301.2029053146
 20
19.8912370904
 10
300.3041736424
 20
20.5328981889
 10
299.4165583033
 20
21.249189896
 10
298.5455317411
 20
22.0356960352
 10
297.6964641241
 20
22.8875675346
 10
296.8745902367
 20
23.7995523231
 10
296.0849772045
 20
24.7660277111
 10
295.3324932546
 20
25.7810350567
 10
294.6217777006
 20
26.8383165019
 10
293.9572123403
 20
27.9313535551
 10
293.3428944402
 20
29.0534072793
 10
292.7826114744
 20
30.1975598403
 10
292.2798177737
 20
31.3567571569
 10
291.8376132284
 20
32.5238523924
 10
291.4587241766
 20
33.6916500164
 10
291.1454865953
 20
34.8529501684
 10
290.8998316984
 20
36.0005930466
 10
290.72327403
 20
37.127503051
 10
290.6169021268
 20
38.2267324069
 10
290.581371807
 20
39.2915039997
  0
LWPOLYLINE
  5
E6
330
1F
100
AcDbEntity
  8
0
  6
Continuous
 62
     7
370
    25
100
AcDbPolyline
 90
       89
 70
   128
 43
0.0
 10
231.3965342217
 20
-57.1777304172
 10
232.4414551665
 20
-56.6161126817
 10
233.5531165152
 20
-56.0989591074
 10
234.7258534963
 20
-55.6289049904
 10
235.953690111
 20
-55.2083456188
 10
237.2303695854
 20
-54.8394240667
 10
238.5493862534
 20
-54.5240202738
 10
239.9040187086
 20
-54.2637414654
 10
241.2873640543
 20
-54.0599139629
 10
242.6923730799
 20
-53.9135764243
 10
244.1118861814
 20
-53.8254745523
 10
245.5386698454
 20
-53.7960572937
 10
246.9654535094
 20
-53.8254745523
 10
248.3849666109
 20
-53.9135764243
 10
249.7899756365
 20
-54.0599139629
 10
251.1733209822
 20
-54.2637414654
 10
252.5279534374
 20
-54.5240202738
 10
253.8469701054
 20
-54.8394240667
 10
255.1236495798
 20
-55.2083456188
 10
256.3514861945
 20
-55.6289049904
 10
257.5242231756
 20
-56.0989591074
 10
258.6358845243
 20
-56.6161126817
 10
259.6808054691
 20
-57.1777304172
 10
260.6536613325
 20
-57.7809504388
 10
261.5494946639
 20
-58.4226988754
 10
262.363740502
 20
-59.0997055241
 10
263.0922496368
 20
-59.8085205142
 10
263.7313097525
 20
-60.545531887
 10
264.2776643454
 20
-61.3069840015
 10
264.7285293177
 20
-62.0889966723
 10
265.0816071648
 20
-62.8875849419
 10
265.335098683
 20
-63.6986793878
 10
265.4877121376
 20
-64.5181468584
 10
265.5386698454
 20
-65.3418115354
 10
265.4877121376
 20
-66.1654762125
 10
265.335098683
 20
-66.9849436831
 10
265.0816071648
 20
-67.7960381289
 10
264.7285293177
 20
-68.5946263986
 10
264.2776643454
 20
-69.3766390694
 10
263.7313097525
 20
-70.1380911839
 10
263.0922496368
 20
-70.8751025567
 10
262.363740502
 20
-71.5839175468
 10
261.5494946639
 20
-72.2609241955
 10
260.6536613325
 20
-72.9026726321
 10
259.6808054691
 20
-73.5058926537
 10
258.6358845243
 20
-74.0675103892
 10
257.5242231756
 20
-74.5846639635
 10
256.3514861945
 20
-75.0547180805
 10
255.1236495798
 20
-75.4752774521
 10
253.8469701054
 20
-75.8441990042
 10
252.5279534374
 20
-76.1596027971
 10
251.1733209822
 20
-76.4198816054
 10
249.7899756365
 20
-76.623709108
 10
248.3849666109
 20
-76.7700466466
 10
246.9654535094
 20
-76.8581485186
 10
245.5386698454
 20
-76.8875657772
 10
244.1118861814
 20
-76.8581485186
 10
242.6923730799
 20
-76.7700466466
 10
241.2873640543
 20
-76.623709108
 10
239.9040187086
 20
-76.4198816054
 10
238.5493862534
 20
-76.1596027971
 10
237.2303695854
 20
-75.8441990042
 10
235.953690111
 20
-75.4752774521
 10
234.7258534963
 20
-75.0547180805
 10
233.5531165152
 20
-74.5846639635
 10
232.4414551665
 20
-74.0675103892
 10
231.3965342217
 20
-73.5058926537
 10
230.4236783583
 20
-72.9026726321
 10
229.5278450269
 20
-72.2609241955
 10
228.7135991888
 20
-71.5839175468
 10
227.9850900541
 20
-70.8751025567
 10
227.3460299383
 20
-70.1380911839
 10
226.7996753454
 20
-69.3766390694
 10
226.3488103731
 20
-68.5946263986
 10
225.995732526
 20
-67.7960381289
 10
225.7422410078
 20
-66.9849436831
 10
225.5896275532
 20
-66.1654762125
 10
225.5386698454
 20
-65.3418115354
 10
225.5896275532
 20
-64.5181468584
 10
225.7422410078
 20
-63.6986793878
 10
225.995732526
 20
-62.8875849419
 10
226.3488103731
 20
-62.0889966723
 10
226.7996753454
 20
-61.3069840015
 10
227.3460299383
 20
-60.545531887
 10
227.9850900541
 20
-59.8085205142
 10
228.7135991888
 20
-59.0997055241
 10
229.5278450269
 20
-58.4226988754
 10
230.4236783583
 20
-57.7809504388
 10
231.3965342217
 20
-57.1777304172
  0
LWPOLYLINE
  5
E7
330
1F
100
AcDbEntity
  8
0
  6
Continuous
 62
     7
370
    25
100
AcDbPolyline
 90
       81
 70
   128
 43
0.0
 10
234.0128293121
 20
-58.6880854241
 10
233.1440526061
 20
-59.230641975
 10
232.3516928371
 20
-59.8108759185
 10
231.6406351664
 20
-60.4252099193
 10
231.0152635011
 20
-61.0698564039
 10
230.4794334655
 20
-61.7408409125
 10
230.0364486298
 20
-62.4340266025
 10
229.6890401429
 20
-63.1451397535
 10
229.4393498937
 20
-63.8697961165
 10
229.2889173056
 20
-64.603527944
 10
229.2386698454
 20
-65.3418115354
 10
229.2889173056
 20
-66.0800951268
 10
229.4393498937
 20
-66.8138269544
 10
229.6890401429
 20
-67.5384833174
 10
230.0364486298
 20
-68.2495964684
 10
230.4794334655
 20
-68.9427821583
 10
231.0152635011
 20
-69.613766667
 10
231.6406351664
 20
-70.2584131516
 10
232.3516928371
 20
-70.8727471524
 10
233.1440526061
 20
-71.4529810958
 10
234.0128293121
 20
-71.9955376468
 10
234.9526666576
 20
-72.4970717637
 10
235.957770233
 20
-72.9544913219
 10
237.0219432405
 20
-73.3649761778
 10
238.1386246997
 20
-73.7259955556
 10
239.3009298979
 20
-74.035323651
 10
240.5016928371
 20
-74.2910533532
 10
241.7335104146
 20
-74.4916080038
 10
242.9887880653
 20
-74.6357511165
 10
244.259786585
 20
-74.7225940011
 10
245.5386698454
 20
-74.7516012424
 10
246.8175531058
 20
-74.7225940011
 10
248.0885516256
 20
-74.6357511165
 10
249.3438292763
 20
-74.4916080038
 10
250.5756468537
 20
-74.2910533532
 10
251.776409793
 20
-74.035323651
 10
252.9387149912
 20
-73.7259955556
 10
254.0553964503
 20
-73.3649761778
 10
255.1195694578
 20
-72.9544913219
 10
256.1246730332
 20
-72.4970717637
 10
257.0645103787
 20
-71.9955376468
 10
257.9332870847
 20
-71.4529810958
 10
258.7256468537
 20
-70.8727471524
 10
259.4367045244
 20
-70.2584131516
 10
260.0620761897
 20
-69.613766667
 10
260.5979062253
 20
-68.9427821583
 10
261.040891061
 20
-68.2495964684
 10
261.3882995479
 20
-67.5384833174
 10
261.6379897971
 20
-66.8138269544
 10
261.7884223853
 20
-66.0800951268
 10
261.8386698454
 20
-65.3418115354
 10
261.7884223853
 20
-64.603527944
 10
261.6379897971
 20
-63.8697961165
 10
261.3882995479
 20
-63.1451397535
 10
261.040891061
 20
-62.4340266025
 10
260.5979062253
 20
-61.7408409125
 10
260.0620761897
 20
-61.0698564039
 10
259.4367045244
 20
-60.4252099193
 10
258.7256468537
 20
-59.8108759185
 10
257.9332870847
 20
-59.230641975
 10
257.0645103787
 20
-58.6880854241
 10
256.1246730332
 20
-58.1865513072
 10
255.1195694578
 20
-57.729131749
 10
254.0553964503
 20
-57.3186468931
 10
252.9387149912
 20
-56.9576275153
 10
251.776409793
 20
-56.6482994199
 10
250.5756468537
 20
-56.3925697176
 10
249.3438292763
 20
-56.1920150671
 10
248.0885516256
 20
-56.0478719544
 10
246.8175531058
 20
-55.9610290698
 10
245.5386698454
 20
-55.9320218284
 10
244.259786585
 20
-55.9610290698
 10
242.9887880653
 20
-56.0478719544
 10
241.7335104146
 20
-56.1920150671
 10
240.5016928371
 20
-56.3925697176
 10
239.3009298979
 20
-56.6482994199
 10
238.1386246997
 20
-56.9576275153
 10
237.0219432405
 20
-57.3186468931
 10
235.957770233
 20
-57.729131749
 10
234.9526666576
 20
-58.1865513072
 10
234.0128293121
 20
-58.6880854241
  0
LWPOLYLINE
  5
E8
330
1F
100
AcDbEntity
  8
0
  6
Continuous
 62
     1
370
    25
100
AcDbPolyline
 90
       12
 70
   128
 43
0.0
 10
259.6808054691
 20
-8.1852817041
 10
260.6896938732
 20
-8.7260915345
 10
261.6934412133
 20
-9.1809274259
 10
262.6869326229
 20
-9.5474716386
 10
263.6651054976
 20
-9.8238563475
 10
264.6229752927
 20
-10.0086731595
 10
265.5556609231
 20
-10.1009802903
 10
266.4584096369
 20
-10.1003073641
 10
267.3266212333
 20
-10.0066578099
 10
268.1558715052
 20
-9.8205088443
 10
268.9419347832
 20
-9.5428090399
 10
269.6799927955
 20
-9.175442714
  0
LWPOLYLINE
  5
E9
330
1F
100
AcDbEntity
  8
0
  6
Continuous
 62
     1
370
    25
100
AcDbPolyline
 90
       35
 70
   128
 43
0.0
 10
249.6816181428
 20
25.4665117813
 10
249.6808054691
 20
25.4660425585
 10
248.992892491
 20
25.0099456711
 10
248.3594426676
 20
24.4679116102
 10
247.7836839139
 20
23.8427024571
 10
247.2685501646
 20
23.1375041345
 10
246.8166664231
 20
22.3559101712
 10
246.4303353856
 20
21.5019033909
 10
246.1115257063
 20
20.5798356166
 10
245.8618619663
 20
19.5944054941
 10
245.6826163948
 20
18.5506345495
 10
245.5747023861
 20
17.4538416002
 10
245.5386698454
 20
16.3096156519
 10
245.5747023861
 20
15.1237874175
 10
245.6826163948
 20
13.902399606
 10
245.8618619663
 20
12.6516761296
 10
246.1115257063
 20
11.3779903886
 10
246.4303353856
 20
10.0878327935
 10
246.8166664231
 20
8.7877776917
 10
247.2685501646
 20
7.484449866
 10
247.7836839139
 20
6.1844907762
 10
248.3594426676
 20
4.8945247159
 10
248.992892491
 20
3.6211250564
 10
249.6808054691
 20
2.3707807505
 10
250.419676155
 20
1.1498632662
 10
251.2057394331
 20
-0.0354058809
 10
252.034989705
 20
-1.1789868308
 10
252.9032013014
 20
-2.2750521573
 10
253.8059500151
 20
-3.3180165626
 10
254.7386356456
 20
-4.3025653391
 10
255.6965054407
 20
-5.2236814521
 10
256.6746783154
 20
-6.076671105
 10
257.668169725
 20
-6.8571876579
 10
258.671917065
 20
-7.5612537774
 10
259.6808054691
 20
-8.1852817041
  0
LWPOLYLINE
  5
EA
330
1F
100
AcDbEntity
  8
0
  6
Continuous
 62
     1
370
    25
100
AcDbPolyline
 90
       12
 70
   128
 43
0.0
 10
259.6808054691
 20
-8.1852817041
 10
260.6536613325
 20
-8.7885017256
 10
261.5494946639
 20
-9.4302501622
 10
262.363740502
 20
-10.1072568109
 10
263.0922496368
 20
-10.816071801
 10
263.7313097525
 20
-11.5530831739
 10
264.2776643454
 20
-12.3145352884
 10
264.7285293177
 20
-13.0965479591
 10
265.0816071648
 20
-13.8951362288
 10
265.335098683
 20
-14.7062306746
 10
265.4877121376
 20
-15.5256981453
 10
265.5386698454
 20
-16.3493628223
  0
LWPOLYLINE
  5
EB
330
1F
100
AcDbEntity
  8
0
  6
Continuous
 62
     1
370
    25
100
AcDbPolyline
 90
       34
 70
   128
 43
0.0
 10
225.5386698454
 20
-16.3493628223
 10
225.5896275532
 20
-15.5256981453
 10
225.7422410078
 20
-14.7062306746
 10
225.995732526
 20
-13.8951362288
 10
226.3488103731
 20
-13.0965479591
 10
226.7996753454
 20
-12.3145352884
 10
227.3460299383
 20
-11.5530831739
 10
227.9850900541
 20
-10.816071801
 10
228.7135991888
 20
-10.1072568109
 10
229.5278450269
 20
-9.4302501622
 10
230.4236783583
 20
-8.7885017256
 10
231.3965342217
 20
-8.1852817041
 10
232.4414551665
 20
-7.6236639685
 10
233.5531165152
 20
-7.1065103942
 10
234.7258534963
 20
-6.6364562773
 10
235.953690111
 20
-6.2158969056
 10
237.2303695854
 20
-5.8469753535
 10
238.5493862534
 20
-5.5315715606
 10
239.9040187086
 20
-5.2712927523
 10
241.2873640543
 20
-5.0674652497
 10
242.6923730799
 20
-4.9211277112
 10
244.1118861814
 20
-4.8330258391
 10
245.5386698454
 20
-4.8036085806
 10
246.9654535094
 20
-4.8330258391
 10
248.3849666109
 20
-4.9211277112
 10
249.7899756365
 20
-5.0674652497
 10
251.1733209822
 20
-5.2712927523
 10
252.5279534374
 20
-5.5315715606
 10
253.8469701054
 20
-5.8469753535
 10
255.1236495798
 20
-6.2158969056
 10
256.3514861945
 20
-6.6364562773
 10
257.5242231756
 20
-7.1065103942
 10
258.6358845243
 20
-7.6236639685
 10
259.6808054691
 20
-8.1852817041
  0
ENDSEC
  0
SECTION
  2
OBJECTS
  0
DICTIONARY
  5
C
330
0
100
AcDbDictionary
281
     1
  3
ACAD_GROUP
350
D
  3
ACAD_LAYOUT
350
1A
  3
ACAD_MLINESTYLE
350
17
  3
ACAD_PLOTSETTINGS
350
19
  3
ACAD_PLOTSTYLENAME
350
E
  3
ACAD_SCALELIST
350
47
  3
DWGPROPS
350
EC
  0
DICTIONARY
  5
D
102
{ACAD_REACTORS
330
C
102
}
330
C
100
AcDbDictionary
281
     1
  0
DICTIONARY
  5
1A
102
{ACAD_REACTORS
330
C
102
}
330
C
100
AcDbDictionary
281
     1
  3
Layout1
350
1E
  3
Layout2
350
26
  3
Model
350
22
  0
DICTIONARY
  5
17
102
{ACAD_REACTORS
330
C
102
}
330
C
100
AcDbDictionary
281
     1
  3
Standard
350
18
  0
DICTIONARY
  5
19
102
{ACAD_REACTORS
330
C
102
}
330
C
100
AcDbDictionary
281
     1
  0
ACDBDICTIONARYWDFLT
  5
E
102
{ACAD_REACTORS
330
C
102
}
330
C
100
AcDbDictionary
281
     1
  3
Normal
350
F
100
AcDbDictionaryWithDefault
340
F
  0
DICTIONARY
  5
47
102
{ACAD_REACTORS
330
C
102
}
330
C
100
AcDbDictionary
281
     1
  3
A0
350
48
  3
A1
350
49
  3
A2
350
4A
  3
A3
350
4B
  3
A4
350
4C
  3
A5
350
4D
  3
A6
350
4E
  3
A7
350
4F
  3
A8
350
50
  3
A9
350
51
  3
B0
350
52
  3
B1
350
53
  3
B2
350
54
  3
B3
350
55
  3
B4
350
56
  3
B5
350
57
  3
B6
350
58
  3
B7
350
59
  3
B8
350
5A
  3
B9
350
5B
  3
C0
350
5C
  3
C1
350
5D
  3
C2
350
5E
  3
C3
350
5F
  3
C4
350
60
  3
C5
350
61
  3
C6
350
62
  3
C7
350
63
  3
C8
350
64
  3
C9
350
65
  3
D0
350
66
  3
D1
350
67
  3
D2
350
68
  0
XRECORD
  5
EC
102
{ACAD_REACTORS
330
C
102
}
330
C
100
AcDbXrecord
280
     1
  1
DWGPROPS COOKIE
  2

  3

  4

  6

  7

  8
b.kav
  9

300
=
301
=
302
=
303
=
304
=
305
=
306
=
307
=
308
=
309
=
 40
0.0
 41
2459935.574297199
 42
2459935.574297373
  1

 90
        0
  0
LAYOUT
  5
1E
102
{ACAD_REACTORS
330
1A
102
}
330
1A
100
AcDbPlotSettings
  1

  2
none_device
  4

  6

 40
0.0
 41
0.0
 42
0.0
 43
0.0
 44
0.0
 45
0.0
 46
0.0
 47
0.0
 48
0.0
 49
0.0
140
0.0
141
0.0
142
1.0
143
1.0
 70
   688
 72
     1
 73
     0
 74
     5
  7

 75
    16
147
1.0
148
0.0
149
0.0
100
AcDbLayout
  1
Layout1
 70
     1
 71
     1
 10
0.0
 20
0.0
 11
420.0
 21
297.0
 12
0.0
 22
0.0
 32
0.0
 14
1.0000000000E+20
 24
1.0000000000E+20
 34
1.0000000000E+20
 15
-1.0000000000E+20
 25
-1.0000000000E+20
 35
-1.0000000000E+20
146
0.0
 13
0.0
 23
0.0
 33
0.0
 16
1.0
 26
0.0
 36
0.0
 17
0.0
 27
1.0
 37
0.0
 76
     0
330
1B
  0
LAYOUT
  5
26
102
{ACAD_REACTORS
330
1A
102
}
330
1A
100
AcDbPlotSettings
  1

  2
none_device
  4

  6

 40
0.0
 41
0.0
 42
0.0
 43
0.0
 44
0.0
 45
0.0
 46
0.0
 47
0.0
 48
0.0
 49
0.0
140
0.0
141
0.0
142
1.0
143
1.0
 70
   688
 72
     1
 73
     0
 74
     5
  7

 75
    16
147
1.0
148
0.0
149
0.0
100
AcDbLayout
  1
Layout2
 70
     1
 71
     2
 10
0.0
 20
0.0
 11
0.0
 21
0.0
 12
0.0
 22
0.0
 32
0.0
 14
0.0
 24
0.0
 34
0.0
 15
0.0
 25
0.0
 35
0.0
146
0.0
 13
0.0
 23
0.0
 33
0.0
 16
1.0
 26
0.0
 36
0.0
 17
0.0
 27
1.0
 37
0.0
 76
     0
330
23
  0
LAYOUT
  5
22
102
{ACAD_REACTORS
330
1A
102
}
330
1A
100
AcDbPlotSettings
  1

  2
none_device
  4
Letter_(8.50_x_11.00_Inches)
  6

 40
6.35
 41
6.35
 42
6.35000508
 43
6.35000508
 44
215.9
 45
279.4
 46
0.0
 47
0.0
 48
0.0
 49
0.0
140
0.0
141
0.0
142
1.0
143
1.0
 70
  1712
 72
     1
 73
     0
 74
     0
  7

 75
     0
147
1.0
148
0.0
149
0.0
100
AcDbLayout
  1
Model
 70
     1
 71
     0
 10
0.0
 20
0.0
 11
279.4
 21
215.9
 12
0.0
 22
0.0
 32
0.0
 14
0.0
 24
0.0
 34
0.0
 15
279.4
 25
215.9
 35
0.0
146
0.0
 13
0.0
 23
0.0
 33
0.0
 16
1.0
 26
0.0
 36
0.0
 17
0.0
 27
1.0
 37
0.0
 76
     0
330
1F
331
29
  0
MLINESTYLE
  5
18
102
{ACAD_REACTORS
330
17
102
}
330
17
100
AcDbMlineStyle
  2
Standard
 70
     0
  3

 62
   256
 51
90.0
 52
90.0
 71
     2
 49
0.5
 62
   256
  6
BYLAYER
 49
-0.5
 62
   256
  6
BYLAYER
  0
ACDBPLACEHOLDER
  5
F
102
{ACAD_REACTORS
330
E
102
}
330
E
  0
SCALE
  5
48
102
{ACAD_REACTORS
330
47
102
}
330
47
100
AcDbScale
 70
     0
300
1:1
140
1.0
141
1.0
290
     1
  0
SCALE
  5
49
102
{ACAD_REACTORS
330
47
102
}
330
47
100
AcDbScale
 70
     0
300
1:2
140
1.0
141
2.0
290
     0
  0
SCALE
  5
4A
102
{ACAD_REACTORS
330
47
102
}
330
47
100
AcDbScale
 70
     0
300
1:4
140
1.0
141
4.0
290
     0
  0
SCALE
  5
4B
102
{ACAD_REACTORS
330
47
102
}
330
47
100
AcDbScale
 70
     0
300
1:5
140
1.0
141
5.0
290
     0
  0
SCALE
  5
4C
102
{ACAD_REACTORS
330
47
102
}
330
47
100
AcDbScale
 70
     0
300
1:8
140
1.0
141
8.0
290
     0
  0
SCALE
  5
4D
102
{ACAD_REACTORS
330
47
102
}
330
47
100
AcDbScale
 70
     0
300
1:10
140
1.0
141
10.0
290
     0
  0
SCALE
  5
4E
102
{ACAD_REACTORS
330
47
102
}
330
47
100
AcDbScale
 70
     0
300
1:16
140
1.0
141
16.0
290
     0
  0
SCALE
  5
4F
102
{ACAD_REACTORS
330
47
102
}
330
47
100
AcDbScale
 70
     0
300
1:20
140
1.0
141
20.0
290
     0
  0
SCALE
  5
50
102
{ACAD_REACTORS
330
47
102
}
330
47
100
AcDbScale
 70
     0
300
1:30
140
1.0
141
30.0
290
     0
  0
SCALE
  5
51
102
{ACAD_REACTORS
330
47
102
}
330
47
100
AcDbScale
 70
     0
300
1:40
140
1.0
141
40.0
290
     0
  0
SCALE
  5
52
102
{ACAD_REACTORS
330
47
102
}
330
47
100
AcDbScale
 70
     0
300
1:50
140
1.0
141
50.0
290
     0
  0
SCALE
  5
53
102
{ACAD_REACTORS
330
47
102
}
330
47
100
AcDbScale
 70
     0
300
1:100
140
1.0
141
100.0
290
     0
  0
SCALE
  5
54
102
{ACAD_REACTORS
330
47
102
}
330
47
100
AcDbScale
 70
     0
300
2:1
140
2.0
141
1.0
290
     0
  0
SCALE
  5
55
102
{ACAD_REACTORS
330
47
102
}
330
47
100
AcDbScale
 70
     0
300
4:1
140
4.0
141
1.0
290
     0
  0
SCALE
  5
56
102
{ACAD_REACTORS
330
47
102
}
330
47
100
AcDbScale
 70
     0
300
8:1
140
8.0
141
1.0
290
     0
  0
SCALE
  5
57
102
{ACAD_REACTORS
330
47
102
}
330
47
100
AcDbScale
 70
     0
300
10:1
140
10.0
141
1.0
290
     0
  0
SCALE
  5
58
102
{ACAD_REACTORS
330
47
102
}
330
47
100
AcDbScale
 70
     0
300
100:1
140
100.0
141
1.0
290
     0
  0
SCALE
  5
59
102
{ACAD_REACTORS
330
47
102
}
330
47
100
AcDbScale
 70
     0
300
1/128" = 1'-0"
140
0.0078125
141
12.0
290
     0
  0
SCALE
  5
5A
102
{ACAD_REACTORS
330
47
102
}
330
47
100
AcDbScale
 70
     0
300
1/64" = 1'-0"
140
0.015625
141
12.0
290
     0
  0
SCALE
  5
5B
102
{ACAD_REACTORS
330
47
102
}
330
47
100
AcDbScale
 70
     0
300
1/32" = 1'-0"
140
0.03125
141
12.0
290
     0
  0
SCALE
  5
5C
102
{ACAD_REACTORS
330
47
102
}
330
47
100
AcDbScale
 70
     0
300
1/16" = 1'-0"
140
0.0625
141
12.0
290
     0
  0
SCALE
  5
5D
102
{ACAD_REACTORS
330
47
102
}
330
47
100
AcDbScale
 70
     0
300
3/32" = 1'-0"
140
0.09375
141
12.0
290
     0
  0
SCALE
  5
5E
102
{ACAD_REACTORS
330
47
102
}
330
47
100
AcDbScale
 70
     0
300
1/8" = 1'-0"
140
0.125
141
12.0
290
     0
  0
SCALE
  5
5F
102
{ACAD_REACTORS
330
47
102
}
330
47
100
AcDbScale
 70
     0
300
3/16" = 1'-0"
140
0.1875
141
12.0
290
     0
  0
SCALE
  5
60
102
{ACAD_REACTORS
330
47
102
}
330
47
100
AcDbScale
 70
     0
300
1/4" = 1'-0"
140
0.25
141
12.0
290
     0
  0
SCALE
  5
61
102
{ACAD_REACTORS
330
47
102
}
330
47
100
AcDbScale
 70
     0
300
3/8" = 1'-0"
140
0.375
141
12.0
290
     0
  0
SCALE
  5
62
102
{ACAD_REACTORS
330
47
102
}
330
47
100
AcDbScale
 70
     0
300
1/2" = 1'-0"
140
0.5
141
12.0
290
     0
  0
SCALE
  5
63
102
{ACAD_REACTORS
330
47
102
}
330
47
100
AcDbScale
 70
     0
300
3/4" = 1'-0"
140
0.75
141
12.0
290
     0
  0
SCALE
  5
64
102
{ACAD_REACTORS
330
47
102
}
330
47
100
AcDbScale
 70
     0
300
1" = 1'-0"
140
1.0
141
12.0
290
     0
  0
SCALE
  5
65
102
{ACAD_REACTORS
330
47
102
}
330
47
100
AcDbScale
 70
     0
300
1-1/2" = 1'-0"
140
1.5
141
12.0
290
     0
  0
SCALE
  5
66
102
{ACAD_REACTORS
330
47
102
}
330
47
100
AcDbScale
 70
     0
300
3" = 1'-0"
140
3.0
141
12.0
290
     0
  0
SCALE
  5
67
102
{ACAD_REACTORS
330
47
102
}
330
47
100
AcDbScale
 70
     0
300
6" = 1'-0"
140
6.0
141
12.0
290
     0
  0
SCALE
  5
68
102
{ACAD_REACTORS
330
47
102
}
330
47
100
AcDbScale
 70
     0
300
1'-0" = 1'-0"
140
12.0
141
12.0
290
     0
  0
ENDSEC
  0
EOF
